ISO-10303-21;
HEADER;
/* Generated by software containing ST-Developer
 * from STEP Tools, Inc. (www.steptools.com) 
 */

FILE_DESCRIPTION(
/* description */ (''),
/* implementation_level */ '2;1');

FILE_NAME(
/* name */ 'model_4.step',
/* time_stamp */ '2025-05-06T22:55:45+02:00',
/* author */ (''),
/* organization */ (''),
/* preprocessor_version */ 'ST-DEVELOPER v20.1',
/* originating_system */ 'Autodesk Translation Framework v14.4.0.0',
/* authorisation */ '');

FILE_SCHEMA (('AUTOMOTIVE_DESIGN { 1 0 10303 214 3 1 1 }'));
ENDSEC;

DATA;
#10=MECHANICAL_DESIGN_GEOMETRIC_PRESENTATION_REPRESENTATION('',(#256,#257,
#258,#259,#260,#261,#262,#263,#264,#265,#266,#267,#268,#269,#270,#271),
#483);
#11=SHAPE_REPRESENTATION_RELATIONSHIP('SRR','None',#490,#12);
#12=ADVANCED_BREP_SHAPE_REPRESENTATION('',(#13),#482);
#13=MANIFOLD_SOLID_BREP('Bry\X2\0142\X0\a1',#287);
#14=CYLINDRICAL_SURFACE('',#311,7.);
#15=CYLINDRICAL_SURFACE('',#313,7.);
#16=CYLINDRICAL_SURFACE('',#315,7.);
#17=CYLINDRICAL_SURFACE('',#317,7.);
#18=CYLINDRICAL_SURFACE('',#319,50.);
#19=CYLINDRICAL_SURFACE('',#326,28.);
#20=CYLINDRICAL_SURFACE('',#329,20.);
#21=FACE_BOUND('',#63,.T.);
#22=FACE_BOUND('',#64,.T.);
#23=FACE_BOUND('',#65,.T.);
#24=FACE_BOUND('',#66,.T.);
#25=FACE_BOUND('',#67,.T.);
#26=FACE_BOUND('',#78,.T.);
#27=FACE_BOUND('',#80,.T.);
#28=FACE_BOUND('',#83,.T.);
#29=FACE_BOUND('',#84,.T.);
#30=FACE_BOUND('',#85,.T.);
#31=FACE_BOUND('',#86,.T.);
#32=FACE_BOUND('',#87,.T.);
#33=CIRCLE('',#302,7.);
#34=CIRCLE('',#303,7.);
#35=CIRCLE('',#304,7.);
#36=CIRCLE('',#305,7.);
#37=CIRCLE('',#306,50.);
#38=CIRCLE('',#312,7.);
#39=CIRCLE('',#314,7.);
#40=CIRCLE('',#316,7.);
#41=CIRCLE('',#318,7.);
#42=CIRCLE('',#320,50.);
#43=CIRCLE('',#322,28.);
#44=CIRCLE('',#324,28.);
#45=CIRCLE('',#325,20.);
#46=CIRCLE('',#328,20.);
#47=FACE_OUTER_BOUND('',#62,.T.);
#48=FACE_OUTER_BOUND('',#68,.T.);
#49=FACE_OUTER_BOUND('',#69,.T.);
#50=FACE_OUTER_BOUND('',#70,.T.);
#51=FACE_OUTER_BOUND('',#71,.T.);
#52=FACE_OUTER_BOUND('',#72,.T.);
#53=FACE_OUTER_BOUND('',#73,.T.);
#54=FACE_OUTER_BOUND('',#74,.T.);
#55=FACE_OUTER_BOUND('',#75,.T.);
#56=FACE_OUTER_BOUND('',#76,.T.);
#57=FACE_OUTER_BOUND('',#77,.T.);
#58=FACE_OUTER_BOUND('',#79,.T.);
#59=FACE_OUTER_BOUND('',#81,.T.);
#60=FACE_OUTER_BOUND('',#82,.T.);
#61=FACE_OUTER_BOUND('',#88,.T.);
#62=EDGE_LOOP('',(#182,#183,#184,#185));
#63=EDGE_LOOP('',(#186));
#64=EDGE_LOOP('',(#187));
#65=EDGE_LOOP('',(#188));
#66=EDGE_LOOP('',(#189));
#67=EDGE_LOOP('',(#190));
#68=EDGE_LOOP('',(#191,#192,#193,#194));
#69=EDGE_LOOP('',(#195,#196,#197,#198));
#70=EDGE_LOOP('',(#199,#200,#201,#202));
#71=EDGE_LOOP('',(#203,#204,#205,#206));
#72=EDGE_LOOP('',(#207,#208,#209,#210));
#73=EDGE_LOOP('',(#211,#212,#213,#214));
#74=EDGE_LOOP('',(#215,#216,#217,#218));
#75=EDGE_LOOP('',(#219,#220,#221,#222));
#76=EDGE_LOOP('',(#223,#224,#225,#226));
#77=EDGE_LOOP('',(#227));
#78=EDGE_LOOP('',(#228));
#79=EDGE_LOOP('',(#229));
#80=EDGE_LOOP('',(#230));
#81=EDGE_LOOP('',(#231,#232,#233,#234));
#82=EDGE_LOOP('',(#235,#236,#237,#238));
#83=EDGE_LOOP('',(#239));
#84=EDGE_LOOP('',(#240));
#85=EDGE_LOOP('',(#241));
#86=EDGE_LOOP('',(#242));
#87=EDGE_LOOP('',(#243));
#88=EDGE_LOOP('',(#244,#245,#246,#247));
#89=LINE('',#413,#108);
#90=LINE('',#415,#109);
#91=LINE('',#417,#110);
#92=LINE('',#418,#111);
#93=LINE('',#431,#112);
#94=LINE('',#433,#113);
#95=LINE('',#434,#114);
#96=LINE('',#437,#115);
#97=LINE('',#438,#116);
#98=LINE('',#441,#117);
#99=LINE('',#442,#118);
#100=LINE('',#444,#119);
#101=LINE('',#448,#120);
#102=LINE('',#452,#121);
#103=LINE('',#456,#122);
#104=LINE('',#460,#123);
#105=LINE('',#464,#124);
#106=LINE('',#474,#125);
#107=LINE('',#479,#126);
#108=VECTOR('',#334,1.);
#109=VECTOR('',#335,1.);
#110=VECTOR('',#336,1.);
#111=VECTOR('',#337,1.);
#112=VECTOR('',#350,1.);
#113=VECTOR('',#351,1.);
#114=VECTOR('',#352,1.);
#115=VECTOR('',#355,1.);
#116=VECTOR('',#356,1.);
#117=VECTOR('',#359,1.);
#118=VECTOR('',#360,1.);
#119=VECTOR('',#363,1.);
#120=VECTOR('',#368,7.);
#121=VECTOR('',#373,7.);
#122=VECTOR('',#378,7.);
#123=VECTOR('',#383,7.);
#124=VECTOR('',#388,50.);
#125=VECTOR('',#401,28.);
#126=VECTOR('',#408,20.);
#127=VERTEX_POINT('',#411);
#128=VERTEX_POINT('',#412);
#129=VERTEX_POINT('',#414);
#130=VERTEX_POINT('',#416);
#131=VERTEX_POINT('',#419);
#132=VERTEX_POINT('',#421);
#133=VERTEX_POINT('',#423);
#134=VERTEX_POINT('',#425);
#135=VERTEX_POINT('',#427);
#136=VERTEX_POINT('',#430);
#137=VERTEX_POINT('',#432);
#138=VERTEX_POINT('',#436);
#139=VERTEX_POINT('',#440);
#140=VERTEX_POINT('',#446);
#141=VERTEX_POINT('',#450);
#142=VERTEX_POINT('',#454);
#143=VERTEX_POINT('',#458);
#144=VERTEX_POINT('',#462);
#145=VERTEX_POINT('',#466);
#146=VERTEX_POINT('',#469);
#147=VERTEX_POINT('',#471);
#148=VERTEX_POINT('',#476);
#149=EDGE_CURVE('',#127,#128,#89,.T.);
#150=EDGE_CURVE('',#129,#127,#90,.T.);
#151=EDGE_CURVE('',#130,#129,#91,.T.);
#152=EDGE_CURVE('',#128,#130,#92,.T.);
#153=EDGE_CURVE('',#131,#131,#33,.T.);
#154=EDGE_CURVE('',#132,#132,#34,.T.);
#155=EDGE_CURVE('',#133,#133,#35,.T.);
#156=EDGE_CURVE('',#134,#134,#36,.T.);
#157=EDGE_CURVE('',#135,#135,#37,.T.);
#158=EDGE_CURVE('',#136,#128,#93,.T.);
#159=EDGE_CURVE('',#137,#136,#94,.T.);
#160=EDGE_CURVE('',#137,#127,#95,.T.);
#161=EDGE_CURVE('',#138,#137,#96,.T.);
#162=EDGE_CURVE('',#138,#129,#97,.T.);
#163=EDGE_CURVE('',#139,#138,#98,.T.);
#164=EDGE_CURVE('',#139,#130,#99,.T.);
#165=EDGE_CURVE('',#136,#139,#100,.T.);
#166=EDGE_CURVE('',#140,#140,#38,.T.);
#167=EDGE_CURVE('',#140,#131,#101,.T.);
#168=EDGE_CURVE('',#141,#141,#39,.T.);
#169=EDGE_CURVE('',#141,#132,#102,.T.);
#170=EDGE_CURVE('',#142,#142,#40,.T.);
#171=EDGE_CURVE('',#142,#133,#103,.T.);
#172=EDGE_CURVE('',#143,#143,#41,.T.);
#173=EDGE_CURVE('',#143,#134,#104,.T.);
#174=EDGE_CURVE('',#144,#144,#42,.T.);
#175=EDGE_CURVE('',#144,#135,#105,.T.);
#176=EDGE_CURVE('',#145,#145,#43,.T.);
#177=EDGE_CURVE('',#146,#146,#44,.T.);
#178=EDGE_CURVE('',#147,#147,#45,.T.);
#179=EDGE_CURVE('',#146,#145,#106,.T.);
#180=EDGE_CURVE('',#148,#148,#46,.T.);
#181=EDGE_CURVE('',#148,#147,#107,.T.);
#182=ORIENTED_EDGE('',*,*,#149,.F.);
#183=ORIENTED_EDGE('',*,*,#150,.F.);
#184=ORIENTED_EDGE('',*,*,#151,.F.);
#185=ORIENTED_EDGE('',*,*,#152,.F.);
#186=ORIENTED_EDGE('',*,*,#153,.F.);
#187=ORIENTED_EDGE('',*,*,#154,.F.);
#188=ORIENTED_EDGE('',*,*,#155,.F.);
#189=ORIENTED_EDGE('',*,*,#156,.F.);
#190=ORIENTED_EDGE('',*,*,#157,.F.);
#191=ORIENTED_EDGE('',*,*,#149,.T.);
#192=ORIENTED_EDGE('',*,*,#158,.F.);
#193=ORIENTED_EDGE('',*,*,#159,.F.);
#194=ORIENTED_EDGE('',*,*,#160,.T.);
#195=ORIENTED_EDGE('',*,*,#150,.T.);
#196=ORIENTED_EDGE('',*,*,#160,.F.);
#197=ORIENTED_EDGE('',*,*,#161,.F.);
#198=ORIENTED_EDGE('',*,*,#162,.T.);
#199=ORIENTED_EDGE('',*,*,#151,.T.);
#200=ORIENTED_EDGE('',*,*,#162,.F.);
#201=ORIENTED_EDGE('',*,*,#163,.F.);
#202=ORIENTED_EDGE('',*,*,#164,.T.);
#203=ORIENTED_EDGE('',*,*,#152,.T.);
#204=ORIENTED_EDGE('',*,*,#164,.F.);
#205=ORIENTED_EDGE('',*,*,#165,.F.);
#206=ORIENTED_EDGE('',*,*,#158,.T.);
#207=ORIENTED_EDGE('',*,*,#166,.F.);
#208=ORIENTED_EDGE('',*,*,#167,.T.);
#209=ORIENTED_EDGE('',*,*,#153,.T.);
#210=ORIENTED_EDGE('',*,*,#167,.F.);
#211=ORIENTED_EDGE('',*,*,#168,.F.);
#212=ORIENTED_EDGE('',*,*,#169,.T.);
#213=ORIENTED_EDGE('',*,*,#154,.T.);
#214=ORIENTED_EDGE('',*,*,#169,.F.);
#215=ORIENTED_EDGE('',*,*,#170,.F.);
#216=ORIENTED_EDGE('',*,*,#171,.T.);
#217=ORIENTED_EDGE('',*,*,#155,.T.);
#218=ORIENTED_EDGE('',*,*,#171,.F.);
#219=ORIENTED_EDGE('',*,*,#172,.F.);
#220=ORIENTED_EDGE('',*,*,#173,.T.);
#221=ORIENTED_EDGE('',*,*,#156,.T.);
#222=ORIENTED_EDGE('',*,*,#173,.F.);
#223=ORIENTED_EDGE('',*,*,#174,.F.);
#224=ORIENTED_EDGE('',*,*,#175,.T.);
#225=ORIENTED_EDGE('',*,*,#157,.T.);
#226=ORIENTED_EDGE('',*,*,#175,.F.);
#227=ORIENTED_EDGE('',*,*,#174,.T.);
#228=ORIENTED_EDGE('',*,*,#176,.F.);
#229=ORIENTED_EDGE('',*,*,#177,.T.);
#230=ORIENTED_EDGE('',*,*,#178,.F.);
#231=ORIENTED_EDGE('',*,*,#177,.F.);
#232=ORIENTED_EDGE('',*,*,#179,.T.);
#233=ORIENTED_EDGE('',*,*,#176,.T.);
#234=ORIENTED_EDGE('',*,*,#179,.F.);
#235=ORIENTED_EDGE('',*,*,#165,.T.);
#236=ORIENTED_EDGE('',*,*,#163,.T.);
#237=ORIENTED_EDGE('',*,*,#161,.T.);
#238=ORIENTED_EDGE('',*,*,#159,.T.);
#239=ORIENTED_EDGE('',*,*,#170,.T.);
#240=ORIENTED_EDGE('',*,*,#166,.T.);
#241=ORIENTED_EDGE('',*,*,#168,.T.);
#242=ORIENTED_EDGE('',*,*,#172,.T.);
#243=ORIENTED_EDGE('',*,*,#180,.T.);
#244=ORIENTED_EDGE('',*,*,#180,.F.);
#245=ORIENTED_EDGE('',*,*,#181,.T.);
#246=ORIENTED_EDGE('',*,*,#178,.T.);
#247=ORIENTED_EDGE('',*,*,#181,.F.);
#248=PLANE('',#301);
#249=PLANE('',#307);
#250=PLANE('',#308);
#251=PLANE('',#309);
#252=PLANE('',#310);
#253=PLANE('',#321);
#254=PLANE('',#323);
#255=PLANE('',#327);
#256=STYLED_ITEM('',(#500),#272);
#257=STYLED_ITEM('',(#500),#273);
#258=STYLED_ITEM('',(#500),#274);
#259=STYLED_ITEM('',(#500),#275);
#260=STYLED_ITEM('',(#500),#276);
#261=STYLED_ITEM('',(#500),#277);
#262=STYLED_ITEM('',(#500),#278);
#263=STYLED_ITEM('',(#500),#279);
#264=STYLED_ITEM('',(#500),#280);
#265=STYLED_ITEM('',(#500),#281);
#266=STYLED_ITEM('',(#500),#282);
#267=STYLED_ITEM('',(#500),#283);
#268=STYLED_ITEM('',(#500),#284);
#269=STYLED_ITEM('',(#500),#285);
#270=STYLED_ITEM('',(#500),#286);
#271=STYLED_ITEM('',(#499),#13);
#272=ADVANCED_FACE('',(#47,#21,#22,#23,#24,#25),#248,.T.);
#273=ADVANCED_FACE('',(#48),#249,.F.);
#274=ADVANCED_FACE('',(#49),#250,.F.);
#275=ADVANCED_FACE('',(#50),#251,.F.);
#276=ADVANCED_FACE('',(#51),#252,.F.);
#277=ADVANCED_FACE('',(#52),#14,.F.);
#278=ADVANCED_FACE('',(#53),#15,.F.);
#279=ADVANCED_FACE('',(#54),#16,.F.);
#280=ADVANCED_FACE('',(#55),#17,.F.);
#281=ADVANCED_FACE('',(#56),#18,.T.);
#282=ADVANCED_FACE('',(#57,#26),#253,.T.);
#283=ADVANCED_FACE('',(#58,#27),#254,.T.);
#284=ADVANCED_FACE('',(#59),#19,.T.);
#285=ADVANCED_FACE('',(#60,#28,#29,#30,#31,#32),#255,.F.);
#286=ADVANCED_FACE('',(#61),#20,.F.);
#287=CLOSED_SHELL('',(#272,#273,#274,#275,#276,#277,#278,#279,#280,#281,
#282,#283,#284,#285,#286));
#288=DERIVED_UNIT_ELEMENT(#290,1.);
#289=DERIVED_UNIT_ELEMENT(#485,-3.);
#290=(
MASS_UNIT()
NAMED_UNIT(*)
SI_UNIT(.KILO.,.GRAM.)
);
#291=DERIVED_UNIT((#288,#289));
#292=MEASURE_REPRESENTATION_ITEM('density measure',
POSITIVE_RATIO_MEASURE(7850.),#291);
#293=PROPERTY_DEFINITION_REPRESENTATION(#298,#295);
#294=PROPERTY_DEFINITION_REPRESENTATION(#299,#296);
#295=REPRESENTATION('material name',(#297),#482);
#296=REPRESENTATION('density',(#292),#482);
#297=DESCRIPTIVE_REPRESENTATION_ITEM('Stal','Stal');
#298=PROPERTY_DEFINITION('material property','material name',#492);
#299=PROPERTY_DEFINITION('material property','density of part',#492);
#300=AXIS2_PLACEMENT_3D('',#409,#330,#331);
#301=AXIS2_PLACEMENT_3D('',#410,#332,#333);
#302=AXIS2_PLACEMENT_3D('',#420,#338,#339);
#303=AXIS2_PLACEMENT_3D('',#422,#340,#341);
#304=AXIS2_PLACEMENT_3D('',#424,#342,#343);
#305=AXIS2_PLACEMENT_3D('',#426,#344,#345);
#306=AXIS2_PLACEMENT_3D('',#428,#346,#347);
#307=AXIS2_PLACEMENT_3D('',#429,#348,#349);
#308=AXIS2_PLACEMENT_3D('',#435,#353,#354);
#309=AXIS2_PLACEMENT_3D('',#439,#357,#358);
#310=AXIS2_PLACEMENT_3D('',#443,#361,#362);
#311=AXIS2_PLACEMENT_3D('',#445,#364,#365);
#312=AXIS2_PLACEMENT_3D('',#447,#366,#367);
#313=AXIS2_PLACEMENT_3D('',#449,#369,#370);
#314=AXIS2_PLACEMENT_3D('',#451,#371,#372);
#315=AXIS2_PLACEMENT_3D('',#453,#374,#375);
#316=AXIS2_PLACEMENT_3D('',#455,#376,#377);
#317=AXIS2_PLACEMENT_3D('',#457,#379,#380);
#318=AXIS2_PLACEMENT_3D('',#459,#381,#382);
#319=AXIS2_PLACEMENT_3D('',#461,#384,#385);
#320=AXIS2_PLACEMENT_3D('',#463,#386,#387);
#321=AXIS2_PLACEMENT_3D('',#465,#389,#390);
#322=AXIS2_PLACEMENT_3D('',#467,#391,#392);
#323=AXIS2_PLACEMENT_3D('',#468,#393,#394);
#324=AXIS2_PLACEMENT_3D('',#470,#395,#396);
#325=AXIS2_PLACEMENT_3D('',#472,#397,#398);
#326=AXIS2_PLACEMENT_3D('',#473,#399,#400);
#327=AXIS2_PLACEMENT_3D('',#475,#402,#403);
#328=AXIS2_PLACEMENT_3D('',#477,#404,#405);
#329=AXIS2_PLACEMENT_3D('',#478,#406,#407);
#330=DIRECTION('axis',(0.,0.,1.));
#331=DIRECTION('refdir',(1.,0.,0.));
#332=DIRECTION('center_axis',(1.,0.,0.));
#333=DIRECTION('ref_axis',(0.,1.,0.));
#334=DIRECTION('',(0.,1.,0.));
#335=DIRECTION('',(0.,0.,1.));
#336=DIRECTION('',(0.,-1.,0.));
#337=DIRECTION('',(0.,0.,-1.));
#338=DIRECTION('center_axis',(1.,0.,0.));
#339=DIRECTION('ref_axis',(0.,1.,0.));
#340=DIRECTION('center_axis',(1.,0.,0.));
#341=DIRECTION('ref_axis',(0.,1.,0.));
#342=DIRECTION('center_axis',(1.,0.,0.));
#343=DIRECTION('ref_axis',(0.,1.,0.));
#344=DIRECTION('center_axis',(1.,0.,0.));
#345=DIRECTION('ref_axis',(0.,1.,0.));
#346=DIRECTION('center_axis',(1.,0.,0.));
#347=DIRECTION('ref_axis',(0.,1.,0.));
#348=DIRECTION('center_axis',(0.,0.,-1.));
#349=DIRECTION('ref_axis',(0.,1.,0.));
#350=DIRECTION('',(1.,0.,0.));
#351=DIRECTION('',(0.,1.,0.));
#352=DIRECTION('',(1.,0.,0.));
#353=DIRECTION('center_axis',(0.,1.,0.));
#354=DIRECTION('ref_axis',(0.,0.,1.));
#355=DIRECTION('',(0.,0.,1.));
#356=DIRECTION('',(1.,0.,0.));
#357=DIRECTION('center_axis',(0.,0.,1.));
#358=DIRECTION('ref_axis',(0.,-1.,0.));
#359=DIRECTION('',(0.,-1.,0.));
#360=DIRECTION('',(1.,0.,0.));
#361=DIRECTION('center_axis',(0.,-1.,0.));
#362=DIRECTION('ref_axis',(0.,0.,-1.));
#363=DIRECTION('',(0.,0.,-1.));
#364=DIRECTION('center_axis',(1.,0.,0.));
#365=DIRECTION('ref_axis',(0.,1.,0.));
#366=DIRECTION('center_axis',(1.,0.,0.));
#367=DIRECTION('ref_axis',(0.,1.,0.));
#368=DIRECTION('',(1.,0.,0.));
#369=DIRECTION('center_axis',(1.,0.,0.));
#370=DIRECTION('ref_axis',(0.,1.,0.));
#371=DIRECTION('center_axis',(1.,0.,0.));
#372=DIRECTION('ref_axis',(0.,1.,0.));
#373=DIRECTION('',(1.,0.,0.));
#374=DIRECTION('center_axis',(1.,0.,0.));
#375=DIRECTION('ref_axis',(0.,1.,0.));
#376=DIRECTION('center_axis',(1.,0.,0.));
#377=DIRECTION('ref_axis',(0.,1.,0.));
#378=DIRECTION('',(1.,0.,0.));
#379=DIRECTION('center_axis',(1.,0.,0.));
#380=DIRECTION('ref_axis',(0.,1.,0.));
#381=DIRECTION('center_axis',(1.,0.,0.));
#382=DIRECTION('ref_axis',(0.,1.,0.));
#383=DIRECTION('',(1.,0.,0.));
#384=DIRECTION('center_axis',(1.,0.,0.));
#385=DIRECTION('ref_axis',(0.,1.,0.));
#386=DIRECTION('center_axis',(1.,0.,0.));
#387=DIRECTION('ref_axis',(0.,1.,0.));
#388=DIRECTION('',(-1.,0.,0.));
#389=DIRECTION('center_axis',(1.,0.,0.));
#390=DIRECTION('ref_axis',(0.,1.,0.));
#391=DIRECTION('center_axis',(1.,0.,0.));
#392=DIRECTION('ref_axis',(0.,1.,0.));
#393=DIRECTION('center_axis',(1.,0.,0.));
#394=DIRECTION('ref_axis',(0.,1.,0.));
#395=DIRECTION('center_axis',(1.,0.,0.));
#396=DIRECTION('ref_axis',(0.,1.,0.));
#397=DIRECTION('center_axis',(1.,0.,0.));
#398=DIRECTION('ref_axis',(0.,1.,0.));
#399=DIRECTION('center_axis',(1.,0.,0.));
#400=DIRECTION('ref_axis',(0.,1.,0.));
#401=DIRECTION('',(-1.,0.,0.));
#402=DIRECTION('center_axis',(1.,0.,0.));
#403=DIRECTION('ref_axis',(0.,1.,0.));
#404=DIRECTION('center_axis',(1.,0.,0.));
#405=DIRECTION('ref_axis',(0.,1.,0.));
#406=DIRECTION('center_axis',(1.,0.,0.));
#407=DIRECTION('ref_axis',(0.,1.,0.));
#408=DIRECTION('',(1.,0.,0.));
#409=CARTESIAN_POINT('',(0.,0.,0.));
#410=CARTESIAN_POINT('Origin',(15.,0.,0.));
#411=CARTESIAN_POINT('',(15.,-65.,65.));
#412=CARTESIAN_POINT('',(15.,65.,65.));
#413=CARTESIAN_POINT('',(15.,0.,65.));
#414=CARTESIAN_POINT('',(15.,-65.,-65.));
#415=CARTESIAN_POINT('',(15.,-65.,0.));
#416=CARTESIAN_POINT('',(15.,65.,-65.));
#417=CARTESIAN_POINT('',(15.,-1.4210854715202E-14,-65.));
#418=CARTESIAN_POINT('',(15.,65.,0.));
#419=CARTESIAN_POINT('',(15.,-58.,51.));
#420=CARTESIAN_POINT('Origin',(15.,-51.,51.));
#421=CARTESIAN_POINT('',(15.,44.,51.));
#422=CARTESIAN_POINT('Origin',(15.,51.,51.));
#423=CARTESIAN_POINT('',(15.,44.,-51.));
#424=CARTESIAN_POINT('Origin',(15.,51.,-51.));
#425=CARTESIAN_POINT('',(15.,-58.,-51.));
#426=CARTESIAN_POINT('Origin',(15.,-51.,-51.));
#427=CARTESIAN_POINT('',(15.,-50.,-6.12323399573677E-15));
#428=CARTESIAN_POINT('Origin',(15.,1.06581410364015E-14,1.06581410364015E-14));
#429=CARTESIAN_POINT('Origin',(0.,-65.,65.));
#430=CARTESIAN_POINT('',(0.,65.,65.));
#431=CARTESIAN_POINT('',(0.,65.,65.));
#432=CARTESIAN_POINT('',(0.,-65.,65.));
#433=CARTESIAN_POINT('',(0.,-65.,65.));
#434=CARTESIAN_POINT('',(0.,-65.,65.));
#435=CARTESIAN_POINT('Origin',(0.,-65.,-65.));
#436=CARTESIAN_POINT('',(0.,-65.,-65.));
#437=CARTESIAN_POINT('',(0.,-65.,-65.));
#438=CARTESIAN_POINT('',(0.,-65.,-65.));
#439=CARTESIAN_POINT('Origin',(0.,65.,-65.));
#440=CARTESIAN_POINT('',(0.,65.,-65.));
#441=CARTESIAN_POINT('',(0.,65.,-65.));
#442=CARTESIAN_POINT('',(0.,65.,-65.));
#443=CARTESIAN_POINT('Origin',(0.,65.,65.));
#444=CARTESIAN_POINT('',(0.,65.,65.));
#445=CARTESIAN_POINT('Origin',(7.5,-51.,51.));
#446=CARTESIAN_POINT('',(0.,-58.,51.));
#447=CARTESIAN_POINT('Origin',(0.,-51.,51.));
#448=CARTESIAN_POINT('',(7.5,-58.,51.));
#449=CARTESIAN_POINT('Origin',(7.5,51.,51.));
#450=CARTESIAN_POINT('',(0.,44.,51.));
#451=CARTESIAN_POINT('Origin',(0.,51.,51.));
#452=CARTESIAN_POINT('',(7.5,44.,51.));
#453=CARTESIAN_POINT('Origin',(7.5,51.,-51.));
#454=CARTESIAN_POINT('',(0.,44.,-51.));
#455=CARTESIAN_POINT('Origin',(0.,51.,-51.));
#456=CARTESIAN_POINT('',(7.5,44.,-51.));
#457=CARTESIAN_POINT('Origin',(7.5,-51.,-51.));
#458=CARTESIAN_POINT('',(0.,-58.,-51.));
#459=CARTESIAN_POINT('Origin',(0.,-51.,-51.));
#460=CARTESIAN_POINT('',(7.5,-58.,-51.));
#461=CARTESIAN_POINT('Origin',(18.,0.,0.));
#462=CARTESIAN_POINT('',(36.,-50.,-6.12323399573677E-15));
#463=CARTESIAN_POINT('Origin',(36.,0.,0.));
#464=CARTESIAN_POINT('',(18.,-50.,-6.12323399573677E-15));
#465=CARTESIAN_POINT('Origin',(36.,0.,0.));
#466=CARTESIAN_POINT('',(36.,-28.,-3.42901103761259E-15));
#467=CARTESIAN_POINT('Origin',(36.,-3.5527136788005E-15,0.));
#468=CARTESIAN_POINT('Origin',(51.2,0.,0.));
#469=CARTESIAN_POINT('',(51.2,-28.,-3.42901103761259E-15));
#470=CARTESIAN_POINT('Origin',(51.2,0.,0.));
#471=CARTESIAN_POINT('',(51.2,-20.,2.44929359829471E-15));
#472=CARTESIAN_POINT('Origin',(51.2,0.,0.));
#473=CARTESIAN_POINT('Origin',(25.6,0.,0.));
#474=CARTESIAN_POINT('',(25.6,-28.,-3.42901103761259E-15));
#475=CARTESIAN_POINT('Origin',(0.,0.,0.));
#476=CARTESIAN_POINT('',(0.,-20.,2.44929359829471E-15));
#477=CARTESIAN_POINT('Origin',(0.,0.,0.));
#478=CARTESIAN_POINT('Origin',(18.,0.,0.));
#479=CARTESIAN_POINT('',(18.,-20.,-2.44929359829471E-15));
#480=UNCERTAINTY_MEASURE_WITH_UNIT(LENGTH_MEASURE(0.01),#484,
'DISTANCE_ACCURACY_VALUE',
'Maximum model space distance between geometric entities at asserted c
onnectivities');
#481=UNCERTAINTY_MEASURE_WITH_UNIT(LENGTH_MEASURE(0.01),#484,
'DISTANCE_ACCURACY_VALUE',
'Maximum model space distance between geometric entities at asserted c
onnectivities');
#482=(
GEOMETRIC_REPRESENTATION_CONTEXT(3)
GLOBAL_UNCERTAINTY_ASSIGNED_CONTEXT((#480))
GLOBAL_UNIT_ASSIGNED_CONTEXT((#484,#486,#487))
REPRESENTATION_CONTEXT('','3D')
);
#483=(
GEOMETRIC_REPRESENTATION_CONTEXT(3)
GLOBAL_UNCERTAINTY_ASSIGNED_CONTEXT((#481))
GLOBAL_UNIT_ASSIGNED_CONTEXT((#484,#486,#487))
REPRESENTATION_CONTEXT('','3D')
);
#484=(
LENGTH_UNIT()
NAMED_UNIT(*)
SI_UNIT(.MILLI.,.METRE.)
);
#485=(
LENGTH_UNIT()
NAMED_UNIT(*)
SI_UNIT($,.METRE.)
);
#486=(
NAMED_UNIT(*)
PLANE_ANGLE_UNIT()
SI_UNIT($,.RADIAN.)
);
#487=(
NAMED_UNIT(*)
SI_UNIT($,.STERADIAN.)
SOLID_ANGLE_UNIT()
);
#488=SHAPE_DEFINITION_REPRESENTATION(#489,#490);
#489=PRODUCT_DEFINITION_SHAPE('',$,#492);
#490=SHAPE_REPRESENTATION('',(#300),#482);
#491=PRODUCT_DEFINITION_CONTEXT('part definition',#496,'design');
#492=PRODUCT_DEFINITION('Part1','Part1.f3d ',#493,#491);
#493=PRODUCT_DEFINITION_FORMATION('',$,#498);
#494=PRODUCT_RELATED_PRODUCT_CATEGORY('Part1.f3d ','Part1.f3d ',(#498));
#495=APPLICATION_PROTOCOL_DEFINITION('international standard',
'automotive_design',2009,#496);
#496=APPLICATION_CONTEXT(
'Core Data for Automotive Mechanical Design Process');
#497=PRODUCT_CONTEXT('part definition',#496,'mechanical');
#498=PRODUCT('Part1','Part1.f3d ',$,(#497));
#499=PRESENTATION_STYLE_ASSIGNMENT((#501));
#500=PRESENTATION_STYLE_ASSIGNMENT((#502));
#501=SURFACE_STYLE_USAGE(.BOTH.,#503);
#502=SURFACE_STYLE_USAGE(.BOTH.,#504);
#503=SURFACE_SIDE_STYLE('',(#505));
#504=SURFACE_SIDE_STYLE('',(#506));
#505=SURFACE_STYLE_FILL_AREA(#507);
#506=SURFACE_STYLE_FILL_AREA(#508);
#507=FILL_AREA_STYLE('Stal \X2\2014\X0\ satynowa',(#509));
#508=FILL_AREA_STYLE('Opaque(255,255,0)',(#510));
#509=FILL_AREA_STYLE_COLOUR('Stal \X2\2014\X0\ satynowa',#511);
#510=FILL_AREA_STYLE_COLOUR('Opaque(255,255,0)',#512);
#511=COLOUR_RGB('Stal \X2\2014\X0\ satynowa',0.627450980392157,0.627450980392157,
0.627450980392157);
#512=COLOUR_RGB('Opaque(255,255,0)',1.,1.,0.);
ENDSEC;
END-ISO-10303-21;
